  0
SECTION
  2
HEADER
  9
$ACADVER
  1
AC1015
  9
$ACADMAINTVER
 70
     6
  9
$DWGCODEPAGE
  3
ANSI_1254
  9
$INSBASE
 10
0.0
 20
0.0
 30
0.0
  9
$EXTMIN
 10
0.0
 20
0.0
 30
0.0
  9
$EXTMAX
 10
279.4
 20
215.9
 30
0.0
  9
$LIMMIN
 10
0.0
 20
0.0
  9
$LIMMAX
 10
279.4
 20
215.9
  9
$ORTHOMODE
 70
     0
  9
$REGENMODE
 70
     1
  9
$FILLMODE
 70
     1
  9
$QTEXTMODE
 70
     0
  9
$MIRRTEXT
 70
     1
  9
$LTSCALE
 40
1.0
  9
$ATTMODE
 70
     1
  9
$TEXTSIZE
 40
3.5
  9
$TRACEWID
 40
1.0
  9
$TEXTSTYLE
  7
Standard
  9
$CLAYER
  8
0
  9
$CELTYPE
  6
ByLayer
  9
$CECOLOR
 62
   256
  9
$CELTSCALE
 40
1.0
  9
$DISPSILH
 70
     0
  9
$DIMSCALE
 40
1.0
  9
$DIMASZ
 40
3.5
  9
$DIMEXO
 40
1.0
  9
$DIMDLI
 40
3.75
  9
$DIMRND
 40
0.0
  9
$DIMDLE
 40
0.0
  9
$DIMEXE
 40
1.0
  9
$DIMTP
 40
0.0
  9
$DIMTM
 40
0.0
  9
$DIMTXT
 40
3.5
  9
$DIMCEN
 40
2.5
  9
$DIMTSZ
 40
0.0
  9
$DIMTOL
 70
     0
  9
$DIMLIM
 70
     0
  9
$DIMTIH
 70
     1
  9
$DIMTOH
 70
     1
  9
$DIMSE1
 70
     0
  9
$DIMSE2
 70
     0
  9
$DIMTAD
 70
     1
  9
$DIMZIN
 70
     0
  9
$DIMBLK
  1

  9
$DIMASO
 70
     1
  9
$DIMSHO
 70
     1
  9
$DIMPOST
  1

  9
$DIMAPOST
  1

  9
$DIMALT
 70
     0
  9
$DIMALTD
 70
     3
  9
$DIMALTF
 40
0.0393700787
  9
$DIMLFAC
 40
1.0
  9
$DIMTOFL
 70
     1
  9
$DIMTVP
 40
0.0
  9
$DIMTIX
 70
     0
  9
$DIMSOXD
 70
     0
  9
$DIMSAH
 70
     0
  9
$DIMBLK1
  1

  9
$DIMBLK2
  1

  9
$DIMSTYLE
  2
ISO-25
  9
$DIMCLRD
 70
     0
  9
$DIMCLRE
 70
     0
  9
$DIMCLRT
 70
     0
  9
$DIMTFAC
 40
1.0
  9
$DIMGAP
 40
1.524
  9
$DIMJUST
 70
     0
  9
$DIMSD1
 70
     0
  9
$DIMSD2
 70
     0
  9
$DIMTOLJ
 70
     0
  9
$DIMTZIN
 70
     0
  9
$DIMALTZ
 70
     0
  9
$DIMALTTZ
 70
     0
  9
$DIMUPT
 70
     0
  9
$DIMDEC
 70
     2
  9
$DIMTDEC
 70
     2
  9
$DIMALTU
 70
     2
  9
$DIMALTTD
 70
     3
  9
$DIMTXSTY
  7
Standard
  9
$DIMAUNIT
 70
     0
  9
$DIMADEC
 70
     2
  9
$DIMALTRND
 40
0.0
  9
$DIMAZIN
 70
     0
  9
$DIMDSEP
 70
    44
  9
$DIMATFIT
 70
     3
  9
$DIMFRAC
 70
     0
  9
$DIMLDRBLK
  1

  9
$DIMLUNIT
 70
     2
  9
$DIMLWD
 70
    -2
  9
$DIMLWE
 70
    -2
  9
$DIMTMOVE
 70
     0
  9
$LUNITS
 70
     2
  9
$LUPREC
 70
     2
  9
$SKETCHINC
 40
1.0
  9
$FILLETRAD
 40
10.0
  9
$AUNITS
 70
     0
  9
$AUPREC
 70
     2
  9
$MENU
  1
.
  9
$ELEVATION
 40
0.0
  9
$PELEVATION
 40
0.0
  9
$THICKNESS
 40
0.0
  9
$LIMCHECK
 70
     0
  9
$CHAMFERA
 40
0.0
  9
$CHAMFERB
 40
0.0
  9
$CHAMFERC
 40
0.0
  9
$CHAMFERD
 40
0.0
  9
$SKPOLY
 70
     0
  9
$TDCREATE
 40
2458985.633294004
  9
$TDUCREATE
 40
2458985.508294004
  9
$TDUPDATE
 40
2458985.633294259
  9
$TDUUPDATE
 40
2458985.508294259
  9
$TDINDWG
 40
0.0000000116
  9
$TDUSRTIMER
 40
0.0000000116
  9
$USRTIMER
 70
     1
  9
$ANGBASE
 50
0.0
  9
$ANGDIR
 70
     0
  9
$PDMODE
 70
     0
  9
$PDSIZE
 40
-1.0
  9
$PLINEWID
 40
0.0
  9
$SPLFRAME
 70
     0
  9
$SPLINETYPE
 70
     6
  9
$SPLINESEGS
 70
     8
  9
$HANDSEED
  5
CC
  9
$SURFTAB1
 70
     6
  9
$SURFTAB2
 70
     6
  9
$SURFTYPE
 70
     6
  9
$SURFU
 70
     6
  9
$SURFV
 70
     6
  9
$UCSBASE
  2

  9
$UCSNAME
  2

  9
$UCSORG
 10
0.0
 20
0.0
 30
0.0
  9
$UCSXDIR
 10
1.0
 20
0.0
 30
0.0
  9
$UCSYDIR
 10
0.0
 20
1.0
 30
0.0
  9
$UCSORTHOREF
  2

  9
$UCSORTHOVIEW
 70
     0
  9
$UCSORGTOP
 10
0.0
 20
0.0
 30
0.0
  9
$UCSORGBOTTOM
 10
0.0
 20
0.0
 30
0.0
  9
$UCSORGLEFT
 10
0.0
 20
0.0
 30
0.0
  9
$UCSORGRIGHT
 10
0.0
 20
0.0
 30
0.0
  9
$UCSORGFRONT
 10
0.0
 20
0.0
 30
0.0
  9
$UCSORGBACK
 10
0.0
 20
0.0
 30
0.0
  9
$PUCSBASE
  2

  9
$PUCSNAME
  2

  9
$PUCSORG
 10
0.0
 20
0.0
 30
0.0
  9
$PUCSXDIR
 10
1.0
 20
0.0
 30
0.0
  9
$PUCSYDIR
 10
0.0
 20
1.0
 30
0.0
  9
$PUCSORTHOREF
  2

  9
$PUCSORTHOVIEW
 70
     0
  9
$PUCSORGTOP
 10
0.0
 20
0.0
 30
0.0
  9
$PUCSORGBOTTOM
 10
0.0
 20
0.0
 30
0.0
  9
$PUCSORGLEFT
 10
0.0
 20
0.0
 30
0.0
  9
$PUCSORGRIGHT
 10
0.0
 20
0.0
 30
0.0
  9
$PUCSORGFRONT
 10
0.0
 20
0.0
 30
0.0
  9
$PUCSORGBACK
 10
0.0
 20
0.0
 30
0.0
  9
$USERI1
 70
     0
  9
$USERI2
 70
     0
  9
$USERI3
 70
     0
  9
$USERI4
 70
     0
  9
$USERI5
 70
     0
  9
$USERR1
 40
0.0
  9
$USERR2
 40
0.0
  9
$USERR3
 40
0.0
  9
$USERR4
 40
0.0
  9
$USERR5
 40
0.0
  9
$WORLDVIEW
 70
     1
  9
$SHADEDGE
 70
     3
  9
$SHADEDIF
 70
    70
  9
$TILEMODE
 70
     1
  9
$MAXACTVP
 70
    64
  9
$PINSBASE
 10
0.0
 20
0.0
 30
0.0
  9
$PLIMCHECK
 70
     0
  9
$PEXTMIN
 10
1.0000000000E+20
 20
1.0000000000E+20
 30
1.0000000000E+20
  9
$PEXTMAX
 10
-1.0000000000E+20
 20
-1.0000000000E+20
 30
-1.0000000000E+20
  9
$PLIMMIN
 10
0.0
 20
0.0
  9
$PLIMMAX
 10
420.0
 20
297.0
  9
$UNITMODE
 70
     0
  9
$VISRETAIN
 70
     1
  9
$PLINEGEN
 70
     0
  9
$PSLTSCALE
 70
     1
  9
$TREEDEPTH
 70
  3020
  9
$CMLSTYLE
  2
Standard
  9
$CMLJUST
 70
     0
  9
$CMLSCALE
 40
20.0
  9
$PROXYGRAPHICS
 70
     1
  9
$MEASUREMENT
 70
     1
  9
$CELWEIGHT
370
    -1
  9
$ENDCAPS
280
     0
  9
$JOINSTYLE
280
     0
  9
$LWDISPLAY
290
     1
  9
$INSUNITS
 70
     4
  9
$HYPERLINKBASE
  1

  9
$STYLESHEET
  1

  9
$XEDIT
290
     1
  9
$CEPSNTYPE
380
     0
  9
$PSTYLEMODE
290
     1
  9
$FINGERPRINTGUID
  2
{9077aea4-6c46-477d-8624-f6b6ca5c1e60}
  9
$VERSIONGUID
  2
{FAEB1C32-E019-11D5-929B-00C0DF256EC4}
  9
$EXTNAMES
290
     1
  9
$PSVPSCALE
 40
0.0
  9
$OLESTARTUP
290
     0
  0
ENDSEC
  0
SECTION
  2
CLASSES
  0
CLASS
  1
ACDBDICTIONARYWDFLT
  2
AcDbDictionaryWithDefault
  3
ObjectDBX Classes
 90
        0
280
     0
281
     0
  0
CLASS
  1
VISUALSTYLE
  2
AcDbVisualStyle
  3
ObjectDBX Classes
 90
     4095
280
     0
281
     0
  0
CLASS
  1
MATERIAL
  2
AcDbMaterial
  3
ObjectDBX Classes
 90
     1153
280
     0
281
     0
  0
CLASS
  1
SCALE
  2
AcDbScale
  3
ObjectDBX Classes
 90
     1153
280
     0
281
     0
  0
CLASS
  1
TABLESTYLE
  2
AcDbTableStyle
  3
ObjectDBX Classes
 90
     4095
280
     0
281
     0
  0
CLASS
  1
MLEADERSTYLE
  2
AcDbMLeaderStyle
  3
ACDB_MLEADERSTYLE_CLASS
 90
     4095
280
     0
281
     0
  0
CLASS
  1
SUN
  2
AcDbSun
  3
SCENEOE
 90
     1153
280
     0
281
     0
  0
CLASS
  1
ACDBPLACEHOLDER
  2
AcDbPlaceHolder
  3
ObjectDBX Classes
 90
        0
280
     0
281
     0
  0
CLASS
  1
LAYOUT
  2
AcDbLayout
  3
ObjectDBX Classes
 90
        0
280
     0
281
     0
  0
ENDSEC
  0
SECTION
  2
TABLES
  0
TABLE
  2
VPORT
  5
8
330
0
100
AcDbSymbolTable
 70
     1
  0
VPORT
  5
29
330
8
100
AcDbSymbolTableRecord
100
AcDbViewportTableRecord
  2
*Active
 70
     0
 10
0.0
 20
0.0
 11
1.0
 21
1.0
 12
139.7
 22
107.95
 13
0.0
 23
0.0
 14
10.0
 24
10.0
 15
10.0
 25
10.0
 16
0.0
 26
0.0
 36
1.0
 17
0.0
 27
0.0
 37
0.0
 40
215.9
 41
1.2941176471
 42
50.0
 43
0.0
 44
0.0
 50
0.0
 51
0.0
 71
     0
 72
  2000
 73
     1
 74
     3
 75
     0
 76
     0
 77
     0
 78
     0
281
     0
 65
     1
110
0.0
120
0.0
130
0.0
111
1.0
121
0.0
131
0.0
112
0.0
122
1.0
132
0.0
 79
     0
146
0.0
  0
ENDTAB
  0
TABLE
  2
LTYPE
  5
5
330
0
100
AcDbSymbolTable
 70
     6
  0
LTYPE
  5
14
330
5
100
AcDbSymbolTableRecord
100
AcDbLinetypeTableRecord
  2
ByBlock
 70
     0
  3

 72
    65
 73
     0
 40
0.0
  0
LTYPE
  5
15
330
5
100
AcDbSymbolTableRecord
100
AcDbLinetypeTableRecord
  2
ByLayer
 70
     0
  3

 72
    65
 73
     0
 40
0.0
  0
LTYPE
  5
16
330
5
100
AcDbSymbolTableRecord
100
AcDbLinetypeTableRecord
  2
Continuous
 70
     0
  3
Solid line
 72
    65
 73
     0
 40
0.0
  0
LTYPE
  5
6E
330
5
100
AcDbSymbolTableRecord
100
AcDbLinetypeTableRecord
  2
HIDDEN
 70
     0
  3
Hidden __ __ __ __ __ __ __ __ __ __ __ __ __ __
 72
    65
 73
     2
 40
1.905
 49
1.27
 74
     0
 49
-0.635
 74
     0
  0
LTYPE
  5
6F
330
5
100
AcDbSymbolTableRecord
100
AcDbLinetypeTableRecord
  2
PHANTOM
 70
     0
  3
Phantom ______  __  __  ______  __  __  ______
 72
    65
 73
     6
 40
12.7
 49
6.35
 74
     0
 49
-1.27
 74
     0
 49
1.27
 74
     0
 49
-1.27
 74
     0
 49
1.27
 74
     0
 49
-1.27
 74
     0
  0
LTYPE
  5
70
330
5
100
AcDbSymbolTableRecord
100
AcDbLinetypeTableRecord
  2
CENTER
 70
     0
  3
Center ____ _ ____ _ ____ _ ____ _ ____ _ ____
 72
    65
 73
     4
 40
10.16
 49
6.35
 74
     0
 49
-1.27
 74
     0
 49
1.27
 74
     0
 49
-1.27
 74
     0
  0
LTYPE
  5
71
330
5
100
AcDbSymbolTableRecord
100
AcDbLinetypeTableRecord
  2
CENTERX2
 70
     0
  3
Center (2x) ________  __  ________  __  _____
 72
    65
 73
     4
 40
20.32
 49
12.7
 74
     0
 49
-2.54
 74
     0
 49
2.54
 74
     0
 49
-2.54
 74
     0
  0
LTYPE
  5
72
330
5
100
AcDbSymbolTableRecord
100
AcDbLinetypeTableRecord
  2
DOT2
 70
     0
  3
Dot (.5x) ........................................
 72
    65
 73
     2
 40
0.635
 49
0.0
 74
     0
 49
-0.635
 74
     0
  0
ENDTAB
  0
TABLE
  2
LAYER
  5
2
330
0
100
AcDbSymbolTable
 70
    17
  0
LAYER
  5
10
330
2
100
AcDbSymbolTableRecord
100
AcDbLayerTableRecord
  2
0
 70
     0
 62
     7
  6
Continuous
370
    -3
390
F
  0
LAYER
  5
73
330
2
100
AcDbSymbolTableRecord
100
AcDbLayerTableRecord
  2
FORMAT
 70
     0
 62
     7
  6
Continuous
370
    -3
390
F
  0
LAYER
  5
74
330
2
100
AcDbSymbolTableRecord
100
AcDbLayerTableRecord
  2
YARDIMCI_GEOMETRI
 70
     0
 62
    -6
  6
Continuous
290
     0
370
    -3
390
F
  0
LAYER
  5
75
330
2
100
AcDbSymbolTableRecord
100
AcDbLayerTableRecord
  2
SAYFA_CERCEVESI
 70
     0
 62
     7
  6
Continuous
370
    25
390
F
  0
LAYER
  5
76
330
2
100
AcDbSymbolTableRecord
100
AcDbLayerTableRecord
  2
ANTET
 70
     0
 62
     7
  6
Continuous
370
    -3
390
F
  0
LAYER
  5
77
330
2
100
AcDbSymbolTableRecord
100
AcDbLayerTableRecord
  2
OLCU
 70
     0
 62
   150
  6
Continuous
370
    -3
390
F
  0
LAYER
  5
78
330
2
100
AcDbSymbolTableRecord
100
AcDbLayerTableRecord
  2
METIN
 70
     0
 62
    96
  6
Continuous
370
    -3
390
F
  0
LAYER
  5
79
330
2
100
AcDbSymbolTableRecord
100
AcDbLayerTableRecord
  2
BALON
 70
     0
 62
     5
  6
Continuous
370
    -3
390
F
  0
LAYER
  5
7A
330
2
100
AcDbSymbolTableRecord
100
AcDbLayerTableRecord
  2
VURGU
 70
     0
 62
     7
  6
Continuous
370
    -3
390
F
  0
LAYER
  5
7B
330
2
100
AcDbSymbolTableRecord
100
AcDbLayerTableRecord
  2
SILIK
 70
     0
 62
     7
  6
Continuous
370
    -3
390
F
  0
LAYER
  5
7C
330
2
100
AcDbSymbolTableRecord
100
AcDbLayerTableRecord
  2
MODEL
 70
     0
 62
     7
  6
Continuous
370
    -3
390
F
  0
LAYER
  5
7D
330
2
100
AcDbSymbolTableRecord
100
AcDbLayerTableRecord
  2
DETAYLANDıRMA
 70
     0
 62
   190
  6
Continuous
370
    -3
390
F
  0
LAYER
  5
7E
330
2
100
AcDbSymbolTableRecord
100
AcDbLayerTableRecord
  2
TOLERANS
 70
     0
 62
   230
  6
Continuous
370
    -3
390
F
  0
LAYER
  5
7F
330
2
100
AcDbSymbolTableRecord
100
AcDbLayerTableRecord
  2
MERKEZ_CIZGILERI
 70
     0
 62
    30
  6
Continuous
370
    -3
390
F
  0
LAYER
  5
80
330
2
100
AcDbSymbolTableRecord
100
AcDbLayerTableRecord
  2
KESIT-DETAY_CIZGILERI
 70
     0
 62
     7
  6
Continuous
370
    -3
390
F
  0
LAYER
  5
81
330
2
100
AcDbSymbolTableRecord
100
AcDbLayerTableRecord
  2
\U+041E\U+0421\U+0415\U+0412\U+042B\U+0415
 70
     0
 62
     7
  6
Continuous
370
    -3
390
F
  0
LAYER
  5
82
330
2
100
AcDbSymbolTableRecord
100
AcDbLayerTableRecord
  2
\U+0412\U+041E\U+0414\U+042F\U+041D\U+042B\U+0415_\U+0417\U+041D\U+0410\U+041A\U+0418
 70
     0
 62
    11
  6
Continuous
370
    -3
390
F
  0
ENDTAB
  0
TABLE
  2
STYLE
  5
3
330
0
100
AcDbSymbolTable
 70
     1
  0
STYLE
  5
11
330
3
100
AcDbSymbolTableRecord
100
AcDbTextStyleTableRecord
  2
Standard
 70
     0
 40
0.0
 41
1.0
 50
0.0
 71
     0
 42
3.5
  3
txt
  4

  0
ENDTAB
  0
TABLE
  2
VIEW
  5
6
330
0
100
AcDbSymbolTable
 70
     0
  0
ENDTAB
  0
TABLE
  2
UCS
  5
7
330
0
100
AcDbSymbolTable
 70
     0
  0
ENDTAB
  0
TABLE
  2
APPID
  5
9
330
0
100
AcDbSymbolTable
 70
     1
  0
APPID
  5
12
330
9
100
AcDbSymbolTableRecord
100
AcDbRegAppTableRecord
  2
ACAD
 70
     0
  0
ENDTAB
  0
TABLE
  2
DIMSTYLE
  5
A
330
0
100
AcDbSymbolTable
 70
     1
100
AcDbDimStyleTable
  0
DIMSTYLE
105
27
330
A
100
AcDbSymbolTableRecord
100
AcDbDimStyleTableRecord
  2
ISO-25
 70
     0
 41
2.5
 42
0.625
 43
3.75
 44
1.25
 73
     0
 74
     0
 77
     1
 78
     8
140
2.5
141
2.5
143
0.0393700787
147
0.625
171
     3
172
     1
178
     0
271
     2
272
     2
274
     3
278
    44
283
     0
284
     8
340
11
  0
ENDTAB
  0
TABLE
  2
BLOCK_RECORD
  5
1
330
0
100
AcDbSymbolTable
 70
     2
  0
BLOCK_RECORD
  5
1F
330
1
100
AcDbSymbolTableRecord
100
AcDbBlockTableRecord
  2
*Model_Space
340
22
  0
BLOCK_RECORD
  5
1B
330
1
100
AcDbSymbolTableRecord
100
AcDbBlockTableRecord
  2
*Paper_Space
340
1E
  0
BLOCK_RECORD
  5
23
330
1
100
AcDbSymbolTableRecord
100
AcDbBlockTableRecord
  2
*Paper_Space0
340
26
  0
BLOCK_RECORD
  5
87
330
1
100
AcDbSymbolTableRecord
100
AcDbBlockTableRecord
  2
SW_CENTERMARKSYMBOL_0
340
0
102
{BLKREFS
331
92
102
}
  0
ENDTAB
  0
ENDSEC
  0
SECTION
  2
BLOCKS
  0
BLOCK
  5
20
330
1F
100
AcDbEntity
  8
0
100
AcDbBlockBegin
  2
*Model_Space
 70
     0
 10
0.0
 20
0.0
 30
0.0
  3
*Model_Space
  1

  0
ENDBLK
  5
21
330
1F
100
AcDbEntity
  8
0
100
AcDbBlockEnd
  0
BLOCK
  5
1C
330
1B
100
AcDbEntity
 67
     1
  8
0
100
AcDbBlockBegin
  2
*Paper_Space
 70
     0
 10
0.0
 20
0.0
 30
0.0
  3
*Paper_Space
  1

  0
ENDBLK
  5
1D
330
1B
100
AcDbEntity
 67
     1
  8
0
100
AcDbBlockEnd
  0
BLOCK
  5
24
330
23
100
AcDbEntity
  8
0
100
AcDbBlockBegin
  2
*Paper_Space0
 70
     0
 10
0.0
 20
0.0
 30
0.0
  3
*Paper_Space0
  1

  0
ENDBLK
  5
25
330
23
100
AcDbEntity
  8
0
100
AcDbBlockEnd
  0
BLOCK
  5
88
330
87
100
AcDbEntity
  8
0
100
AcDbBlockBegin
  2
SW_CENTERMARKSYMBOL_0
 70
     0
 10
0.0
 20
0.0
 30
0.0
  3
SW_CENTERMARKSYMBOL_0
  1

  0
LINE
  5
8A
330
87
100
AcDbEntity
  8
FORMAT
 62
     0
100
AcDbLine
 10
0.0
 20
0.0
 30
0.0
 11
0.0
 21
2.5
 31
0.0
  0
LINE
  5
8B
330
87
100
AcDbEntity
  8
FORMAT
 62
     0
100
AcDbLine
 10
0.0
 20
0.0
 30
0.0
 11
-2.5
 21
0.0
 31
0.0
  0
LINE
  5
8C
330
87
100
AcDbEntity
  8
FORMAT
 62
     0
100
AcDbLine
 10
0.0
 20
0.0
 30
0.0
 11
0.0
 21
-2.5
 31
0.0
  0
LINE
  5
8D
330
87
100
AcDbEntity
  8
FORMAT
 62
     0
100
AcDbLine
 10
0.0
 20
0.0
 30
0.0
 11
2.5
 21
0.0
 31
0.0
  0
LINE
  5
8E
330
87
100
AcDbEntity
  8
FORMAT
 62
     0
100
AcDbLine
 10
0.0
 20
5.0
 30
0.0
 11
0.0
 21
245.0
 31
0.0
  0
LINE
  5
8F
330
87
100
AcDbEntity
  8
FORMAT
 62
     0
100
AcDbLine
 10
-5.0
 20
0.0
 30
0.0
 11
-245.0
 21
0.0
 31
0.0
  0
LINE
  5
90
330
87
100
AcDbEntity
  8
FORMAT
 62
     0
100
AcDbLine
 10
0.0
 20
-5.0
 30
0.0
 11
0.0
 21
-245.0
 31
0.0
  0
LINE
  5
91
330
87
100
AcDbEntity
  8
FORMAT
 62
     0
100
AcDbLine
 10
5.0
 20
0.0
 30
0.0
 11
245.0
 21
0.0
 31
0.0
  0
ENDBLK
  5
89
330
87
100
AcDbEntity
  8
0
100
AcDbBlockEnd
  0
ENDSEC
  0
SECTION
  2
ENTITIES
  0
CIRCLE
  5
83
330
1F
100
AcDbEntity
  8
0
  6
Continuous
 62
     7
370
    25
100
AcDbCircle
 10
142.9934680851
 20
119.1714893617
 30
0.0
 40
200.0
  0
CIRCLE
  5
84
330
1F
100
AcDbEntity
  8
0
  6
Continuous
 62
     7
370
    25
100
AcDbCircle
 10
142.9934680851
 20
119.1714893617
 30
0.0
 40
163.7
  0
CIRCLE
  5
85
330
1F
100
AcDbEntity
  8
0
  6
Continuous
 62
     7
370
    25
100
AcDbCircle
 10
142.9934680851
 20
119.1714893617
 30
0.0
 40
215.0
  0
CIRCLE
  5
86
330
1F
100
AcDbEntity
  8
0
  6
Continuous
 62
     7
370
    25
100
AcDbCircle
 10
142.9934680851
 20
119.1714893617
 30
0.0
 40
242.5
  0
INSERT
  5
92
330
1F
100
AcDbEntity
  8
FORMAT
 62
     7
100
AcDbBlockReference
  2
SW_CENTERMARKSYMBOL_0
 10
142.9934680851
 20
119.1714893617
 30
0.0
  0
LINE
  5
93
330
1F
100
AcDbEntity
  8
0
  6
Continuous
 62
     7
370
    25
100
AcDbLine
 10
385.4934680851
 20
456.5903548759
 30
0.0
 11
385.4934680851
 21
506.5903548759
 31
0.0
  0
LINE
  5
94
330
1F
100
AcDbEntity
  8
0
  6
Continuous
 62
     7
370
    25
100
AcDbLine
 10
-99.5065319149
 20
506.5903548759
 30
0.0
 11
-99.5065319149
 21
456.5903548759
 31
0.0
  0
LINE
  5
95
330
1F
100
AcDbEntity
  8
0
  6
Continuous
 62
     7
370
    25
100
AcDbLine
 10
357.9934680851
 20
506.5903548759
 30
0.0
 11
342.9934680851
 21
539.5903548759
 31
0.0
  0
LINE
  5
96
330
1F
100
AcDbEntity
  8
0
  6
Continuous
 62
     7
370
    25
100
AcDbLine
 10
-57.0065319149
 20
539.5903548759
 30
0.0
 11
-72.0065319149
 21
506.5903548759
 31
0.0
  0
LINE
  5
97
330
1F
100
AcDbEntity
  8
0
  6
Continuous
 62
     7
370
    25
100
AcDbLine
 10
342.9934680851
 20
539.5903548759
 30
0.0
 11
342.9934680851
 21
720.5903548759
 31
0.0
  0
LINE
  5
98
330
1F
100
AcDbEntity
  8
0
  6
Continuous
 62
     7
370
    25
100
AcDbLine
 10
-57.0065319149
 20
720.5903548759
 30
0.0
 11
-57.0065319149
 21
539.5903548759
 31
0.0
  0
LINE
  5
99
330
1F
100
AcDbEntity
  8
0
  6
Continuous
 62
     7
370
    25
100
AcDbLine
 10
385.4934680851
 20
456.5903548759
 30
0.0
 11
-99.5065319149
 21
456.5903548759
 31
0.0
  0
LINE
  5
9A
330
1F
100
AcDbEntity
  8
0
  6
Continuous
 62
     7
370
    25
100
AcDbLine
 10
385.4934680851
 20
506.5903548759
 30
0.0
 11
-99.5065319149
 21
506.5903548759
 31
0.0
  0
LINE
  5
9B
330
1F
100
AcDbEntity
  8
0
  6
Continuous
 62
     7
370
    25
100
AcDbLine
 10
342.9934680851
 20
539.5903548759
 30
0.0
 11
-57.0065319149
 21
539.5903548759
 31
0.0
  0
LINE
  5
9C
330
1F
100
AcDbEntity
  8
0
  6
Continuous
 62
     7
370
    25
100
AcDbLine
 10
342.9934680851
 20
720.5903548759
 30
0.0
 11
-57.0065319149
 21
720.5903548759
 31
0.0
  0
LINE
  5
9D
330
1F
100
AcDbEntity
  8
0
  6
Continuous
 62
     7
370
    25
100
AcDbLine
 10
-245.0798899687
 20
361.6714893617
 30
0.0
 11
-295.0798899687
 21
361.6714893617
 31
0.0
  0
LINE
  5
9E
330
1F
100
AcDbEntity
  8
0
  6
Continuous
 62
     7
370
    25
100
AcDbLine
 10
-295.0798899687
 20
-123.3285106383
 30
0.0
 11
-245.0798899687
 21
-123.3285106383
 31
0.0
  0
LINE
  5
9F
330
1F
100
AcDbEntity
  8
0
  6
Continuous
 62
     7
370
    25
100
AcDbLine
 10
-295.0798899687
 20
334.1714893617
 30
0.0
 11
-328.0798899687
 21
319.1714893617
 31
0.0
  0
LINE
  5
A0
330
1F
100
AcDbEntity
  8
0
  6
Continuous
 62
     7
370
    25
100
AcDbLine
 10
-328.0798899687
 20
-80.8285106383
 30
0.0
 11
-295.0798899687
 21
-95.8285106383
 31
0.0
  0
LINE
  5
A1
330
1F
100
AcDbEntity
  8
0
  6
Continuous
 62
     7
370
    25
100
AcDbLine
 10
-328.0798899687
 20
319.1714893617
 30
0.0
 11
-509.0798899687
 21
319.1714893617
 31
0.0
  0
LINE
  5
A2
330
1F
100
AcDbEntity
  8
0
  6
Continuous
 62
     7
370
    25
100
AcDbLine
 10
-509.0798899687
 20
-80.8285106383
 30
0.0
 11
-328.0798899687
 21
-80.8285106383
 31
0.0
  0
LINE
  5
A3
330
1F
100
AcDbEntity
  8
0
  6
Continuous
 62
     7
370
    25
100
AcDbLine
 10
-245.0798899687
 20
361.6714893617
 30
0.0
 11
-245.0798899687
 21
-123.3285106383
 31
0.0
  0
LINE
  5
A4
330
1F
100
AcDbEntity
  8
0
  6
Continuous
 62
     7
370
    25
100
AcDbLine
 10
-295.0798899687
 20
361.6714893617
 30
0.0
 11
-295.0798899687
 21
-123.3285106383
 31
0.0
  0
LINE
  5
A5
330
1F
100
AcDbEntity
  8
0
  6
Continuous
 62
     7
370
    25
100
AcDbLine
 10
-328.0798899687
 20
319.1714893617
 30
0.0
 11
-328.0798899687
 21
-80.8285106383
 31
0.0
  0
LINE
  5
A6
330
1F
100
AcDbEntity
  8
0
  6
Continuous
 62
     7
370
    25
100
AcDbLine
 10
-509.0798899687
 20
319.1714893617
 30
0.0
 11
-509.0798899687
 21
-80.8285106383
 31
0.0
  0
LINE
  5
A7
330
1F
100
AcDbEntity
  8
0
  6
Continuous
 62
     7
370
    25
100
AcDbLine
 10
533.598247745
 20
-123.3285106383
 30
0.0
 11
583.598247745
 21
-123.3285106383
 31
0.0
  0
LINE
  5
A8
330
1F
100
AcDbEntity
  8
0
  6
Continuous
 62
     7
370
    25
100
AcDbLine
 10
583.598247745
 20
361.6714893617
 30
0.0
 11
533.598247745
 21
361.6714893617
 31
0.0
  0
LINE
  5
A9
330
1F
100
AcDbEntity
  8
0
  6
Continuous
 62
     7
370
    25
100
AcDbLine
 10
583.598247745
 20
-95.8285106383
 30
0.0
 11
616.598247745
 21
-80.8285106383
 31
0.0
  0
LINE
  5
AA
330
1F
100
AcDbEntity
  8
0
  6
Continuous
 62
     7
370
    25
100
AcDbLine
 10
616.598247745
 20
319.1714893617
 30
0.0
 11
583.598247745
 21
334.1714893617
 31
0.0
  0
LINE
  5
AB
330
1F
100
AcDbEntity
  8
0
  6
Continuous
 62
     7
370
    25
100
AcDbLine
 10
616.598247745
 20
-80.8285106383
 30
0.0
 11
797.598247745
 21
-80.8285106383
 31
0.0
  0
LINE
  5
AC
330
1F
100
AcDbEntity
  8
0
  6
Continuous
 62
     7
370
    25
100
AcDbLine
 10
797.598247745
 20
319.1714893617
 30
0.0
 11
616.598247745
 21
319.1714893617
 31
0.0
  0
LINE
  5
AD
330
1F
100
AcDbEntity
  8
0
  6
Continuous
 62
     7
370
    25
100
AcDbLine
 10
533.598247745
 20
119.1714893617
 30
0.0
 11
533.598247745
 21
361.6714893617
 31
0.0
  0
LINE
  5
AE
330
1F
100
AcDbEntity
  8
0
  6
Continuous
 62
     7
370
    25
100
AcDbLine
 10
533.598247745
 20
-123.3285106383
 30
0.0
 11
533.598247745
 21
119.1714893617
 31
0.0
  0
LINE
  5
AF
330
1F
100
AcDbEntity
  8
0
  6
Continuous
 62
     7
370
    25
100
AcDbLine
 10
583.598247745
 20
119.1714893617
 30
0.0
 11
583.598247745
 21
361.6714893617
 31
0.0
  0
LINE
  5
B0
330
1F
100
AcDbEntity
  8
0
  6
Continuous
 62
     7
370
    25
100
AcDbLine
 10
583.598247745
 20
-123.3285106383
 30
0.0
 11
583.598247745
 21
119.1714893617
 31
0.0
  0
LINE
  5
B1
330
1F
100
AcDbEntity
  8
0
  6
Continuous
 62
     7
370
    25
100
AcDbLine
 10
616.598247745
 20
119.1714893617
 30
0.0
 11
616.598247745
 21
319.1714893617
 31
0.0
  0
LINE
  5
B2
330
1F
100
AcDbEntity
  8
0
  6
Continuous
 62
     7
370
    25
100
AcDbLine
 10
616.598247745
 20
-80.8285106383
 30
0.0
 11
616.598247745
 21
119.1714893617
 31
0.0
  0
LINE
  5
B3
330
1F
100
AcDbEntity
  8
0
  6
Continuous
 62
     7
370
    25
100
AcDbLine
 10
797.598247745
 20
119.1714893617
 30
0.0
 11
797.598247745
 21
319.1714893617
 31
0.0
  0
LINE
  5
B4
330
1F
100
AcDbEntity
  8
0
  6
Continuous
 62
     7
370
    25
100
AcDbLine
 10
797.598247745
 20
-80.8285106383
 30
0.0
 11
797.598247745
 21
119.1714893617
 31
0.0
  0
LINE
  5
B5
330
1F
100
AcDbEntity
  8
0
  6
Continuous
 62
     7
370
    25
100
AcDbLine
 10
-99.5065319149
 20
-236.2651301419
 30
0.0
 11
-99.5065319149
 21
-286.2651301419
 31
0.0
  0
LINE
  5
B6
330
1F
100
AcDbEntity
  8
0
  6
Continuous
 62
     7
370
    25
100
AcDbLine
 10
385.4934680851
 20
-286.2651301419
 30
0.0
 11
385.4934680851
 21
-236.2651301419
 31
0.0
  0
LINE
  5
B7
330
1F
100
AcDbEntity
  8
0
  6
Continuous
 62
     7
370
    25
100
AcDbLine
 10
-72.0065319149
 20
-286.2651301419
 30
0.0
 11
-57.0065319149
 21
-319.2651301419
 31
0.0
  0
LINE
  5
B8
330
1F
100
AcDbEntity
  8
0
  6
Continuous
 62
     7
370
    25
100
AcDbLine
 10
342.9934680851
 20
-319.2651301419
 30
0.0
 11
357.9934680851
 21
-286.2651301419
 31
0.0
  0
LINE
  5
B9
330
1F
100
AcDbEntity
  8
0
  6
Continuous
 62
     7
370
    25
100
AcDbLine
 10
-57.0065319149
 20
-319.2651301419
 30
0.0
 11
-57.0065319149
 21
-500.2651301419
 31
0.0
  0
LINE
  5
BA
330
1F
100
AcDbEntity
  8
0
  6
Continuous
 62
     7
370
    25
100
AcDbLine
 10
342.9934680851
 20
-500.2651301419
 30
0.0
 11
342.9934680851
 21
-319.2651301419
 31
0.0
  0
LINE
  5
BB
330
1F
100
AcDbEntity
  8
0
  6
Continuous
 62
     7
370
    25
100
AcDbLine
 10
-99.5065319149
 20
-236.2651301419
 30
0.0
 11
385.4934680851
 21
-236.2651301419
 31
0.0
  0
LINE
  5
BC
330
1F
100
AcDbEntity
  8
0
  6
Continuous
 62
     7
370
    25
100
AcDbLine
 10
-99.5065319149
 20
-286.2651301419
 30
0.0
 11
385.4934680851
 21
-286.2651301419
 31
0.0
  0
LINE
  5
BD
330
1F
100
AcDbEntity
  8
0
  6
Continuous
 62
     7
370
    25
100
AcDbLine
 10
-57.0065319149
 20
-319.2651301419
 30
0.0
 11
342.9934680851
 21
-319.2651301419
 31
0.0
  0
LINE
  5
BE
330
1F
100
AcDbEntity
  8
0
  6
Continuous
 62
     7
370
    25
100
AcDbLine
 10
-57.0065319149
 20
-500.2651301419
 30
0.0
 11
342.9934680851
 21
-500.2651301419
 31
0.0
  0
LINE
  5
BF
330
1F
100
AcDbEntity
  8
0
  6
Continuous
 62
     7
370
    25
100
AcDbLine
 10
596.5833455485
 20
-297.5682413764
 30
0.0
 11
512.1114801521
 21
-380.015371608
 31
0.0
  0
LINE
  5
C0
330
1F
100
AcDbEntity
  8
0
  6
Continuous
 62
     7
370
    25
100
AcDbLine
 10
791.5027436124
 20
-666.2679207706
 30
0.0
 11
875.9746090087
 21
-583.820790539
 31
0.0
  0
LINE
  5
C1
330
1F
100
AcDbEntity
  8
0
  6
Continuous
 62
     7
370
    25
100
AcDbLine
 10
605.633741087
 20
-229.3466604631
 30
0.0
 11
582.2989716405
 21
-252.1221108033
 31
0.0
  0
LINE
  5
C2
330
1F
100
AcDbEntity
  8
0
  6
Continuous
 62
     7
370
    25
100
AcDbLine
 10
921.0608785861
 20
-599.203326663
 30
0.0
 11
944.3956480326
 21
-576.4278763228
 31
0.0
  0
LWPOLYLINE
  5
C3
330
1F
100
AcDbEntity
  8
0
  6
Continuous
 62
     7
370
    25
100
AcDbPolyline
 90
      151
 70
   128
 43
0.0
 10
474.9234875468
 20
-475.0684672525
 10
475.0786445381
 20
-467.9317473837
 10
475.5438433138
 20
-460.8918844378
 10
476.3182677572
 20
-453.9612287267
 10
477.4005592648
 20
-447.1519389754
 10
478.7888191294
 20
-440.4759609921
 10
480.4806118715
 20
-433.9450067106
 10
482.4729695118
 20
-427.570533644
 10
484.7623967779
 20
-421.363724784
 10
487.3448772364
 20
-415.3354689826
 10
490.2158803392
 20
-409.4963418488
 10
493.3703693712
 20
-403.8565871957
 10
496.8028102867
 20
-398.4260990694
 10
500.507181418
 20
-393.2144043914
 10
504.4769840395
 20
-388.2306462451
 10
508.7052537682
 20
-383.4835678358
 10
513.1845727825
 20
-378.981497152
 10
517.9070828345
 20
-374.7323323556
 10
522.8644990371
 20
-370.7435279255
 10
528.0481243976
 20
-367.02208158
 10
533.4488650757
 20
-363.5745220007
 10
539.0572463371
 20
-360.4068973784
 10
544.8634291754
 20
-357.5247648032
 10
550.8572275728
 20
-354.933180515
 10
557.0281263703
 20
-352.6366910331
 10
563.3652997145
 20
-350.6393251806
 10
569.85763005
 20
-348.9445870158
 10
576.4937276232
 20
-347.5554496854
 10
583.2619504641
 20
-346.4743502082
 10
590.1504248099
 20
-345.7031852001
 10
597.147065936
 20
-345.2433075466
 10
604.2395993562
 20
-345.0955240293
 10
611.4155823569
 20
-345.2600939108
 10
618.6624258256
 20
-345.7367284795
 10
625.9674163362
 20
-346.5245915565
 10
633.3177384533
 20
-347.6223009622
 10
640.700497214
 20
-349.0279309413
 10
648.1027407509
 20
-350.7390155412
 10
655.5114830136
 20
-352.7525529381
 10
662.9137265505
 20
-355.0650107031
 10
670.2964853113
 20
-357.6723319995
 10
677.6468074283
 20
-360.5699427
 10
684.9517979389
 20
-363.7527594105
 10
692.1986414076
 20
-367.2151983892
 10
699.3746244083
 20
-370.9511853415
 10
706.4671578286
 20
-374.9541660768
 10
713.4637989546
 20
-379.2171180066
 10
720.3522733004
 20
-383.7325624648
 10
727.1204961413
 20
-388.4925778274
 10
733.7565937145
 20
-393.4888134099
 10
740.24892405
 20
-398.7125041174
 10
746.5860973942
 20
-404.1544858214
 10
752.7569961917
 20
-409.8052114369
 10
758.7507945892
 20
-415.6547676708
 10
764.5569774274
 20
-421.692892414
 10
770.1653586888
 20
-427.9089927438
 10
775.5660993669
 20
-434.292163508
 10
780.7497247274
 20
-440.8312064561
 10
785.70714093
 20
-447.5146498848
 10
790.4296509821
 20
-454.3307687632
 10
794.9089699963
 20
-461.2676053028
 10
799.1372397251
 20
-468.3129899349
 10
803.1070423465
 20
-475.4545626611
 10
806.8114134778
 20
-482.6797947359
 10
810.2438543933
 20
-489.9760106472
 10
813.3983434253
 20
-497.330410353
 10
816.2693465281
 20
-504.7300917372
 10
818.8518269867
 20
-512.1620732442
 10
821.1412542528
 20
-519.613316653
 10
823.133611893
 20
-527.0707499508
 10
824.8254046351
 20
-534.5212902654
 10
826.2136644997
 20
-541.9518668175
 10
827.2959560073
 20
-549.3494438509
 10
828.0703804508
 20
-556.7010435017
 10
828.5355792265
 20
-563.993768566
 10
828.6907362178
 20
-571.2148251261
 10
828.5355792265
 20
-578.3515449949
 10
828.0703804508
 20
-585.3914079408
 10
827.2959560073
 20
-592.3220636519
 10
826.2136644997
 20
-599.1313534032
 10
824.8254046351
 20
-605.8073313865
 10
823.133611893
 20
-612.338285668
 10
821.1412542528
 20
-618.7127587346
 10
818.8518269867
 20
-624.9195675946
 10
816.2693465281
 20
-630.947823396
 10
813.3983434253
 20
-636.7869505298
 10
810.2438543933
 20
-642.4267051829
 10
806.8114134778
 20
-647.8571933092
 10
803.1070423465
 20
-653.0688879871
 10
799.1372397251
 20
-658.0526461334
 10
794.9089699963
 20
-662.7997245428
 10
790.4296509821
 20
-667.3017952266
 10
785.70714093
 20
-671.550960023
 10
780.7497247274
 20
-675.5397644531
 10
775.5660993669
 20
-679.2612107985
 10
770.1653586888
 20
-682.7087703779
 10
764.5569774274
 20
-685.8763950001
 10
758.7507945892
 20
-688.7585275753
 10
752.7569961917
 20
-691.3501118636
 10
746.5860973942
 20
-693.6466013454
 10
740.24892405
 20
-695.643967198
 10
733.7565937145
 20
-697.3387053627
 10
727.1204961413
 20
-698.7278426932
 10
720.3522733004
 20
-699.8089421704
 10
713.4637989546
 20
-700.5801071784
 10
706.4671578286
 20
-701.039984832
 10
699.3746244083
 20
-701.1877683492
 10
692.1986414076
 20
-701.0231984677
 10
684.9517979389
 20
-700.546563899
 10
677.6468074283
 20
-699.758700822
 10
670.2964853113
 20
-698.6609914163
 10
662.9137265505
 20
-697.2553614372
 10
655.5114830136
 20
-695.5442768374
 10
648.1027407509
 20
-693.5307394405
 10
640.700497214
 20
-691.2182816755
 10
633.3177384533
 20
-688.610960379
 10
625.9674163362
 20
-685.7133496786
 10
618.6624258256
 20
-682.530532968
 10
611.4155823569
 20
-679.0680939893
 10
604.2395993562
 20
-675.3321070371
 10
597.147065936
 20
-671.3291263018
 10
590.1504248099
 20
-667.0661743719
 10
583.2619504641
 20
-662.5507299138
 10
576.4937276232
 20
-657.7907145512
 10
569.85763005
 20
-652.7944789687
 10
563.3652997145
 20
-647.5707882612
 10
557.0281263703
 20
-642.1288065571
 10
550.8572275728
 20
-636.4780809417
 10
544.8634291754
 20
-630.6285247077
 10
539.0572463371
 20
-624.5903999646
 10
533.4488650757
 20
-618.3742996348
 10
528.0481243976
 20
-611.9911288705
 10
522.8644990371
 20
-605.4520859224
 10
517.9070828345
 20
-598.7686424937
 10
513.1845727825
 20
-591.9525236153
 10
508.7052537682
 20
-585.0156870758
 10
504.4769840395
 20
-577.9703024436
 10
500.507181418
 20
-570.8287297175
 10
496.8028102867
 20
-563.6034976427
 10
493.3703693712
 20
-556.3072817313
 10
490.2158803392
 20
-548.9528820255
 10
487.3448772364
 20
-541.5532006413
 10
484.7623967779
 20
-534.1212191344
 10
482.4729695118
 20
-526.6699757255
 10
480.4806118715
 20
-519.2125424278
 10
478.7888191294
 20
-511.7620021132
 10
477.4005592648
 20
-504.3314255611
 10
476.3182677572
 20
-496.9338485277
 10
475.5438433138
 20
-489.5822488769
 10
475.0786445381
 20
-482.2895238126
 10
474.9234875468
 20
-475.0684672525
  0
LWPOLYLINE
  5
C4
330
1F
100
AcDbEntity
  8
0
  6
Continuous
 62
     7
370
    25
100
AcDbPolyline
 90
      136
 70
   128
 43
0.0
 10
507.0278653637
 20
-483.7937492295
 10
507.1846451681
 20
-477.3080065055
 10
507.6546450314
 20
-470.9215292388
 10
508.4368470384
 20
-464.6481491173
 10
509.5295571138
 20
-458.5014528853
 10
510.9304086909
 20
-452.4947529181
 10
512.6363678371
 20
-446.6410583903
 10
514.6437398248
 20
-440.9530471007
 10
516.9481771332
 20
-435.4430380152
 10
519.5446888643
 20
-430.1229645866
 10
522.4276515518
 20
-425.0043489092
 10
525.5908213406
 20
-420.0982767647
 10
529.0273475092
 20
-415.4153736131
 10
532.7297873072
 20
-410.9657815797
 10
536.6901220745
 20
-406.75913749
 10
540.8997746077
 20
-402.8045519985
 10
545.349627737
 20
-399.1105898567
 10
550.0300440713
 20
-395.685251364
 10
554.9308868711
 20
-392.5359550409
 10
560.0415420021
 20
-389.6695215619
 10
565.3509409234
 20
-387.0921589838
 10
570.8475846592
 20
-384.8094492997
 10
576.5195687032
 20
-382.8263363508
 10
582.3546088008
 20
-381.147115118
 10
588.3400675547
 20
-379.7754224205
 10
594.4629817939
 20
-378.7142290394
 10
600.7100906496
 20
-377.9658332831
 10
607.0678642752
 20
-377.5318560103
 10
613.5225331487
 20
-377.413237119
 10
620.0601178947
 20
-377.6102335114
 10
626.6664595603
 20
-378.1224185372
 10
633.3272502806
 20
-378.9486829176
 10
640.0280642661
 20
-380.087237148
 10
646.7543890458
 20
-381.5356153734
 10
653.491656898
 20
-383.2906807292
 10
660.2252764009
 20
-385.3486321345
 10
666.9406640339
 20
-387.705012525
 10
673.6232757629
 20
-390.3547185053
 10
680.2586385388
 20
-393.2920114024
 10
686.8323816435
 20
-396.510529694
 10
693.3302678133
 20
-400.003302786
 10
699.7382240735
 20
-403.7627661097
 10
706.0423722179
 20
-407.7807775047
 10
712.2290588654
 20
-412.0486348532
 10
718.2848850303
 20
-416.5570949262
 10
724.1967351416
 20
-421.2963934034
 10
729.9518054484
 20
-426.2562660196
 10
735.53763175
 20
-431.425970795
 10
740.9421163904
 20
-436.7943113004
 10
746.1535544594
 20
-442.3496609055
 10
751.1606591426
 20
-448.0799879603
 10
755.9525861661
 20
-453.9728818523
 10
760.5189572832
 20
-460.0155798855
 10
764.8498827507
 20
-466.1949949216
 10
768.9359827486
 20
-472.4977437237
 10
772.7684076941
 20
-478.9101759412
 10
776.3388574082
 20
-485.418403674
 10
779.6395990918
 20
-492.00833155
 10
782.6634840735
 20
-498.6656872528
 10
785.4039632917
 20
-505.3760524324
 10
787.8551014787
 20
-512.1248939321
 10
790.0115900151
 20
-518.8975952641
 10
791.8687584267
 20
-525.6794882652
 10
793.4225845005
 20
-532.4558848656
 10
794.6697029951
 20
-539.212108899
 10
795.6074129295
 20
-545.9335278888
 10
796.2336834329
 20
-552.605584738
 10
796.5471581428
 20
-559.2138292573
 10
796.5471581428
 20
-565.7439494605
 10
796.2336834329
 20
-572.1818025613
 10
795.6074129295
 20
-578.5134456036
 10
794.6697029951
 20
-584.7251656584
 10
793.4225845005
 20
-590.8035095232
 10
791.8687584267
 20
-596.7353128588
 10
790.0115900151
 20
-602.5077287
 10
787.8551014787
 20
-608.1082552795
 10
785.4039632917
 20
-613.5247631038
 10
782.6634840735
 20
-618.7455212232
 10
779.6395990918
 20
-623.7592226379
 10
776.3388574082
 20
-628.5550087874
 10
772.7684076941
 20
-633.1224930666
 10
768.9359827486
 20
-637.4517833216
 10
764.8498827507
 20
-641.5335032739
 10
760.5189572832
 20
-645.3588128269
 10
755.9525861661
 20
-648.9194272119
 10
751.1606591426
 20
-652.207634931
 10
746.1535544594
 20
-655.2163144585
 10
740.9421163904
 20
-657.9389496646
 10
735.53763175
 20
-660.3696439276
 10
729.9518054484
 20
-662.5031329051
 10
724.1967351416
 20
-664.3347959349
 10
718.2848850303
 20
-665.8606660428
 10
712.2290588654
 20
-667.077438534
 10
706.0423722179
 20
-667.9824781502
 10
699.7382240735
 20
-668.573824777
 10
693.3302678133
 20
-668.8501976895
 10
686.8323816435
 20
-668.8109983253
 10
680.2586385388
 20
-668.4563115817
 10
673.6232757629
 20
-667.786905631
 10
666.9406640339
 20
-666.8042302576
 10
660.2252764009
 20
-665.5104137175
 10
653.491656898
 20
-663.9082581291
 10
646.7543890458
 20
-662.0012334048
 10
640.0280642661
 20
-659.7934697354
 10
633.3272502806
 20
-657.2897486454
 10
626.6664595603
 20
-654.4954926372
 10
620.0601178947
 20
-651.4167534471
 10
613.5225331487
 20
-648.0601989386
 10
607.0678642752
 20
-644.4330986614
 10
600.7100906496
 20
-640.5433081069
 10
594.4629817939
 20
-636.3992516953
 10
588.3400675547
 20
-632.0099045301
 10
582.3546088008
 20
-627.3847729598
 10
576.5195687032
 20
-622.5338739894
 10
570.8475846592
 20
-617.467713586
 10
565.3509409234
 20
-612.1972639249
 10
560.0415420021
 20
-606.7339396264
 10
554.9308868711
 20
-601.0895730344
 10
550.0300440713
 20
-595.2763885901
 10
545.349627737
 20
-589.3069763565
 10
540.8997746077
 20
-583.1942647512
 10
536.6901220745
 20
-576.9514925465
 10
532.7297873072
 20
-570.5921801967
 10
529.0273475092
 20
-564.1301005565
 10
525.5908213406
 20
-557.5792490513
 10
522.4276515518
 20
-550.9538133668
 10
519.5446888643
 20
-544.2681427212
 10
516.9481771332
 20
-537.5367167886
 10
514.6437398248
 20
-530.7741143385
 10
512.6363678371
 20
-523.994981662
 10
510.9304086909
 20
-517.2140008509
 10
509.5295571138
 20
-510.4458579996
 10
508.4368470384
 20
-503.7052113985
 10
507.6546450314
 20
-497.0066597871
 10
507.1846451681
 20
-490.3647107365
 10
507.0278653637
 20
-483.7937492295
  0
LWPOLYLINE
  5
C5
330
1F
100
AcDbEntity
  8
0
  6
Continuous
 62
     7
370
    25
100
AcDbPolyline
 90
       77
 70
   128
 43
0.0
 10
596.5833455485
 20
-297.5682413764
 10
597.6564381788
 20
-296.5343669204
 10
602.3789482309
 20
-292.285202124
 10
607.3363644334
 20
-288.2963976939
 10
612.5199897939
 20
-284.5749513484
 10
617.9207304721
 20
-281.1273917691
 10
623.5291117335
 20
-277.9597671468
 10
629.3352945717
 20
-275.0776345716
 10
635.3290929692
 20
-272.4860502834
 10
641.4999917667
 20
-270.1895608016
 10
647.8371651109
 20
-268.192194949
 10
654.3294954464
 20
-266.4974567843
 10
660.9655930196
 20
-265.1083194538
 10
667.7338158605
 20
-264.0272199766
 10
674.6222902063
 20
-263.2560549685
 10
681.6189313323
 20
-262.796177315
 10
688.7114647525
 20
-262.6483937978
 10
695.8874477533
 20
-262.8129636792
 10
703.1342912219
 20
-263.289598248
 10
710.4392817326
 20
-264.077461325
 10
717.7896038496
 20
-265.1751707307
 10
725.1723626104
 20
-266.5808007098
 10
732.5746061473
 20
-268.2918853096
 10
739.9833484099
 20
-270.3054227065
 10
747.3855919469
 20
-272.6178804715
 10
754.7683507076
 20
-275.225201768
 10
762.1186728246
 20
-278.1228124684
 10
769.4236633353
 20
-281.305629179
 10
776.6705068039
 20
-284.7680681576
 10
783.8464898047
 20
-288.5040551099
 10
790.9390232249
 20
-292.5070358452
 10
797.9356643509
 20
-296.7699877751
 10
804.8241386968
 20
-301.2854322332
 10
811.5923615376
 20
-306.0454475958
 10
818.2284591109
 20
-311.0416831783
 10
824.7207894464
 20
-316.2653738858
 10
831.0579627906
 20
-321.7073555899
 10
837.2288615881
 20
-327.3580812053
 10
843.2226599855
 20
-333.2076374393
 10
849.0288428237
 20
-339.2457621824
 10
854.6372240852
 20
-345.4618625122
 10
860.0379647633
 20
-351.8450332765
 10
865.2215901238
 20
-358.3840762246
 10
870.1790063263
 20
-365.0675196532
 10
874.9015163784
 20
-371.8836385317
 10
879.3808353927
 20
-378.8204750712
 10
883.6091051214
 20
-385.8658597034
 10
887.5789077428
 20
-393.0074324295
 10
891.2832788742
 20
-400.2326645043
 10
894.7157197897
 20
-407.5288804157
 10
897.8702088217
 20
-414.8832801215
 10
900.7412119244
 20
-422.2829615056
 10
903.323692383
 20
-429.7149430126
 10
905.6131196491
 20
-437.1661864214
 10
907.6054772894
 20
-444.6236197192
 10
909.2972700315
 20
-452.0741600338
 10
910.6855298961
 20
-459.5047365859
 10
911.7678214036
 20
-466.9023136193
 10
912.5422458471
 20
-474.2539132701
 10
913.0074446228
 20
-481.5466383344
 10
913.1626016141
 20
-488.7676948945
 10
913.0074446228
 20
-495.9044147633
 10
912.5422458471
 20
-502.9442777092
 10
911.7678214036
 20
-509.8749334203
 10
910.6855298961
 20
-516.6842231716
 10
909.2972700315
 20
-523.3602011549
 10
907.6054772894
 20
-529.8911554364
 10
905.6131196491
 20
-536.265628503
 10
903.323692383
 20
-542.472437363
 10
900.7412119244
 20
-548.5006931644
 10
897.8702088217
 20
-554.3398202982
 10
894.7157197897
 20
-559.9795749513
 10
891.2832788742
 20
-565.4100630776
 10
887.5789077428
 20
-570.6217577556
 10
883.6091051214
 20
-575.6055159019
 10
879.3808353927
 20
-580.3525943112
 10
875.9746090087
 20
-583.820790539
  0
ARC
  5
C6
330
1F
100
AcDbEntity
  8
0
  6
Continuous
 62
     7
370
    25
100
AcDbCircle
 10
710.6367480124
 20
-406.0124325911
 30
0.0
 40
124.3827883584197
100
AcDbArc
 50
167.7534041455
 51
180.2088610604
  0
LWPOLYLINE
  5
C7
330
1F
100
AcDbEntity
  8
0
  6
Continuous
 62
     7
370
    25
100
AcDbPolyline
 90
       45
 70
   128
 43
0.0
 10
793.7566941356
 20
-589.3269850466
 10
791.4559795732
 20
-589.7495351096
 10
785.2692929257
 20
-590.6545747258
 10
778.9651447813
 20
-591.2459213527
 10
772.5571885211
 20
-591.5222942651
 10
766.0593023514
 20
-591.483094901
 10
759.4855592466
 20
-591.1284081573
 10
752.8501964707
 20
-590.4590022067
 10
746.1675847417
 20
-589.4763268333
 10
739.4521971087
 20
-588.1825102931
 10
732.7185776059
 20
-586.5803547047
 10
725.9813097536
 20
-584.6733299804
 10
719.2549849739
 20
-582.465566311
 10
712.5541709884
 20
-579.9618452211
 10
705.8933802681
 20
-577.1675892129
 10
699.2870386025
 20
-574.0888500228
 10
692.7494538566
 20
-570.7322955143
 10
686.294784983
 20
-567.105195237
 10
679.9370113574
 20
-563.2154046825
 10
673.6899025017
 20
-559.0713482709
 10
667.5669882625
 20
-554.6820011057
 10
661.5815295086
 20
-550.0568695354
 10
655.746489411
 20
-545.2059705651
 10
650.074505367
 20
-540.1398101617
 10
644.5778616313
 20
-534.8693605005
 10
639.2684627099
 20
-529.406036202
 10
634.1578075789
 20
-523.76166961
 10
629.2569647792
 20
-517.9484851657
 10
624.5765484448
 20
-511.9790729321
 10
620.1266953156
 20
-505.8663613268
 10
615.9170427823
 20
-499.6235891221
 10
611.956708015
 20
-493.2642767724
 10
608.254268217
 20
-486.8021971321
 10
604.8177420484
 20
-480.2513456269
 10
601.6545722596
 20
-473.6259099424
 10
598.7716095721
 20
-466.9402392969
 10
596.175097841
 20
-460.2088133643
 10
593.8706605326
 20
-453.4462109142
 10
591.863288545
 20
-446.6670782377
 10
590.1573293988
 20
-439.8860974265
 10
588.7564778217
 20
-433.1179545752
 10
587.6637677463
 20
-426.3773079741
 10
586.8815657392
 20
-419.6787563627
 10
586.411565876
 20
-413.0368073122
 10
586.2547860715
 20
-406.4658458052
  0
LWPOLYLINE
  5
C8
330
1F
100
AcDbEntity
  8
0
  6
Continuous
 62
     7
370
    25
100
AcDbPolyline
 90
       84
 70
   128
 43
0.0
 10
605.633741087
 20
-229.3466604631
 10
608.9834637803
 20
-226.183625223
 10
614.2724245056
 20
-221.5902753001
 10
619.7944461554
 20
-217.259788685
 10
625.5415223261
 20
-213.1984441693
 10
631.5053203069
 20
-209.4121303143
 10
637.6771931606
 20
-205.9063369131
 10
644.0481922618
 20
-202.6861470309
 10
650.6090802708
 20
-199.7562296354
 10
657.3503445272
 20
-197.1208328265
 10
664.2622108423
 20
-194.7837776777
 10
671.3346576708
 20
-192.7484526956
 10
678.5574306409
 20
-191.0178089067
 10
685.9200574222
 20
-189.5943555792
 10
693.4118629099
 20
-188.4801565843
 10
701.0219847022
 20
-187.6768274039
 10
708.7393888499
 20
-187.1855327887
 10
716.552885855
 20
-187.0069850688
 10
724.4511468937
 20
-187.1414431214
 10
732.4227202425
 20
-187.5887119951
 10
740.4560478823
 20
-188.3481431929
 10
748.539482256
 20
-189.418635612
 10
756.6613031564
 20
-190.7986371409
 10
764.8097347198
 20
-192.4861469092
 10
772.9729624993
 20
-194.4787181891
 10
781.1391505951
 20
-196.7734619427
 10
789.2964588152
 20
-199.3670510111
 10
797.4330598425
 20
-202.2557249379
 10
805.5371563833
 20
-205.4352954221
 10
813.5969982724
 20
-208.9011523906
 10
821.6008995097
 20
-212.648270682
 10
829.5372552035
 20
-216.6712173331
 10
837.3945583967
 20
-220.9641594558
 10
845.161416751
 20
-225.5208726944
 10
852.8265690642
 20
-230.3347502504
 10
860.3789015982
 20
-235.3988124615
 10
867.8074641929
 20
-240.7057169216
 10
875.1014861428
 20
-246.2477691267
 10
882.2503918132
 20
-252.0169336308
 10
889.2438159744
 20
-258.004845697
 10
896.0716188301
 20
-264.2028234252
 10
902.7239007186
 20
-270.6018803402
 10
909.1910164674
 20
-277.1927384213
 10
915.4635893768
 20
-283.9658415543
 10
921.5325248157
 20
-290.9113693873
 10
927.389023408
 20
-298.0192515688
 10
933.0245937907
 20
-305.2791823492
 10
938.4310649253
 20
-312.680635523
 10
943.6005979457
 20
-320.2128796906
 10
948.5256975231
 20
-327.864993818
 10
953.199222734
 20
-335.6258830714
 10
957.6143974137
 20
-343.4842949033
 10
961.764819981
 20
-351.4288353677
 10
965.6444727199
 20
-359.4479856406
 10
969.2477305048
 20
-367.5301187206
 10
972.5693689565
 20
-375.6635162874
 10
975.6045720168
 20
-383.8363856922
 10
978.3489389313
 20
-392.0368770556
 10
980.7984906304
 20
-400.2531004491
 10
982.9496754983
 20
-408.4731431344
 10
984.7993745226
 20
-416.6850868353
 10
986.3449058167
 20
-424.8770250185
 10
987.5840285077
 20
-433.0370801568
 10
988.5149459864
 20
-441.1534209505
 10
989.1363085113
 20
-449.2142794812
 10
989.4472151663
 20
-457.2079682747
 10
989.4472151663
 20
-465.1228972466
 10
989.1363085113
 20
-472.9475905064
 10
988.5149459864
 20
-480.6707029969
 10
987.5840285077
 20
-488.2810369434
 10
986.3449058167
 20
-495.7675580893
 10
984.7993745226
 20
-503.1194116946
 10
982.9496754983
 20
-510.3259382743
 10
980.7984906304
 20
-517.376689054
 10
978.3489389313
 20
-524.261441119
 10
975.6045720168
 20
-530.970212237
 10
972.5693689565
 20
-537.4932753313
 10
969.2477305048
 20
-543.821172584
 10
965.6444727199
 20
-549.9447291491
 10
961.764819981
 20
-555.8550664549
 10
957.6143974137
 20
-561.5436150773
 10
953.199222734
 20
-567.0021271648
 10
948.5256975231
 20
-572.2226883966
 10
944.3956480326
 20
-576.4278763228
  0
LWPOLYLINE
  5
C9
330
1F
100
AcDbEntity
  8
0
  6
Continuous
 62
     7
370
    25
100
AcDbPolyline
 90
      116
 70
   128
 43
0.0
 10
537.585875196
 20
-355.1515810915
 10
537.8302312099
 20
-351.7274392741
 10
538.6065119161
 20
-344.0593261758
 10
539.6917287014
 20
-336.5095301952
 10
541.0843081051
 20
-329.088997815
 10
542.7822310205
 20
-321.8084880975
 10
544.7830356214
 20
-314.6785570859
 10
547.0838209326
 20
-307.7095424984
 10
549.6812510352
 20
-300.9115487401
 10
552.571559904
 20
-294.294432252
 10
555.7505568674
 20
-287.8677872203
 10
559.2136326837
 20
-281.640931666
 10
562.9557662241
 20
-275.6228939343
 10
566.9715317526
 20
-269.8223996046
 10
571.2551067932
 20
-264.2478588391
 10
575.8002805717
 20
-258.9073541891
 10
580.6004630204
 20
-253.8086288758
 10
585.6486943338
 20
-248.9590755633
 10
590.9376550591
 20
-244.3657256403
 10
596.4596767089
 20
-240.0352390252
 10
602.2067528796
 20
-235.9738945095
 10
608.1705508604
 20
-232.1875806545
 10
614.3424237141
 20
-228.6817872533
 10
620.7134228153
 20
-225.4615973711
 10
627.2743108243
 20
-222.5316799756
 10
634.0155750807
 20
-219.8962831667
 10
640.9274413958
 20
-217.5592280179
 10
647.9998882243
 20
-215.5239030358
 10
655.2226611944
 20
-213.7932592469
 10
662.5852879757
 20
-212.3698059194
 10
670.0770934634
 20
-211.2556069245
 10
677.6872152556
 20
-210.4522777442
 10
685.4046194034
 20
-209.9609831289
 10
693.2181164085
 20
-209.782435409
 10
701.1163774472
 20
-209.9168934616
 10
709.087950796
 20
-210.3641623353
 10
717.1212784358
 20
-211.1235935331
 10
725.2047128095
 20
-212.1940859522
 10
733.3265337099
 20
-213.5740874811
 10
741.4749652733
 20
-215.2615972494
 10
749.6381930528
 20
-217.2541685293
 10
757.8043811486
 20
-219.548912283
 10
765.9616893687
 20
-222.1425013513
 10
774.098290396
 20
-225.0311752781
 10
782.2023869368
 20
-228.2107457624
 10
790.2622288259
 20
-231.6766027308
 10
798.2661300632
 20
-235.4237210222
 10
806.202485757
 20
-239.4466676733
 10
814.0597889502
 20
-243.739609796
 10
821.8266473045
 20
-248.2963230346
 10
829.4917996177
 20
-253.1102005906
 10
837.0441321517
 20
-258.1742628017
 10
844.4726947464
 20
-263.4811672618
 10
851.7667166963
 20
-269.0232194669
 10
858.9156223667
 20
-274.792383971
 10
865.9090465279
 20
-280.7802960372
 10
872.7368493836
 20
-286.9782737654
 10
879.3891312721
 20
-293.3773306804
 10
885.8562470209
 20
-299.9681887615
 10
892.1288199303
 20
-306.7412918946
 10
898.1977553692
 20
-313.6868197275
 10
904.0542539615
 20
-320.794701909
 10
909.6898243442
 20
-328.0546326895
 10
915.0962954788
 20
-335.4560858632
 10
920.2658284992
 20
-342.9883300308
 10
925.1909280766
 20
-350.6404441583
 10
929.8644532875
 20
-358.4013334116
 10
934.2796279672
 20
-366.2597452435
 10
938.4300505345
 20
-374.2042857079
 10
942.3097032734
 20
-382.2234359808
 10
945.9129610583
 20
-390.3055690608
 10
949.23459951
 20
-398.4389666276
 10
952.2698025703
 20
-406.6118360324
 10
955.0141694848
 20
-414.8123273958
 10
957.4637211839
 20
-423.0285507894
 10
959.6149060518
 20
-431.2485934746
 10
961.4646050761
 20
-439.4605371755
 10
963.0101363702
 20
-447.6524753587
 10
964.2492590612
 20
-455.812530497
 10
965.1801765399
 20
-463.9288712907
 10
965.8015390648
 20
-471.9897298214
 10
966.1124457197
 20
-479.983418615
 10
966.1124457197
 20
-487.8983475868
 10
965.8015390648
 20
-495.7230408466
 10
965.1801765399
 20
-503.4461533371
 10
964.2492590612
 20
-511.0564872837
 10
963.0101363702
 20
-518.5430084295
 10
961.4646050761
 20
-525.8948620348
 10
959.6149060518
 20
-533.1013886145
 10
957.4637211839
 20
-540.1521393942
 10
955.0141694847
 20
-547.0368914592
 10
952.2698025702
 20
-553.7456625772
 10
949.23459951
 20
-560.2687256715
 10
945.9129610583
 20
-566.5966229242
 10
942.3097032734
 20
-572.7201794893
 10
938.4300505345
 20
-578.6305167951
 10
934.2796279672
 20
-584.3190654175
 10
929.8644532875
 20
-589.777577505
 10
925.1909280766
 20
-594.9981387368
 10
920.2658284992
 20
-599.9731797982
 10
915.0962954788
 20
-604.6954873553
 10
909.6898243442
 20
-609.1582145136
 10
904.0542539615
 20
-613.3548907454
 10
898.1977553692
 20
-617.2794312713
 10
892.1288199303
 20
-620.9261458827
 10
885.8562470209
 20
-624.2897471922
 10
879.3891312721
 20
-627.3653582993
 10
872.7368493836
 20
-630.148519862
 10
865.9090465279
 20
-632.6351965621
 10
858.9156223667
 20
-634.8217829562
 10
851.7667166963
 20
-636.7051087029
 10
844.4726947464
 20
-638.28244316
 10
837.0441321517
 20
-639.5514993433
 10
829.4917996177
 20
-640.5104372428
 10
821.8266473045
 20
-641.15786649
 10
816.9771386562
 20
-641.4041302541
  0
LWPOLYLINE
  5
CA
330
1F
100
AcDbEntity
  8
0
  6
Continuous
 62
     7
370
    25
100
AcDbPolyline
 90
       98
 70
   128
 43
0.0
 10
569.1804981998
 20
-324.3142604618
 10
571.4413827084
 20
-317.955430795
 10
574.0448607108
 20
-311.6320297086
 10
576.9401926577
 20
-305.4959807449
 10
580.1226215262
 20
-299.5573654162
 10
583.5869185939
 20
-293.8259408518
 10
587.3273920301
 20
-288.3111237674
 10
591.3378962465
 20
-283.0219749928
 10
595.6118419953
 20
-277.9671845856
 10
600.1422071949
 20
-273.1550575532
 10
604.9215484671
 20
-268.5935002077
 10
609.9420133668
 20
-264.2900071758
 10
615.1953532833
 20
-260.2516490852
 10
620.6729369929
 20
-256.4850609478
 10
626.3657648401
 20
-252.9964312578
 10
632.2644835235
 20
-249.7914918248
 10
638.3594014639
 20
-246.8755083558
 10
644.6405047271
 20
-244.253271804
 10
651.0974734769
 20
-241.9290904972
 10
657.7196989307
 20
-239.9067830591
 10
664.4963007893
 20
-238.1896721356
 10
671.4161451138
 20
-236.7805789354
 10
678.4678626181
 20
-235.6818185948
 10
685.6398673488
 20
-234.8951963744
 10
692.920375721
 20
-234.4220046923
 10
700.2974258786
 20
-234.2630210012
 10
707.7588973475
 20
-234.4185065109
 10
715.2925309497
 20
-234.8882057591
 10
722.885948945
 20
-235.6713470312
 10
730.5266753675
 20
-236.7666436281
 10
738.2021565238
 20
-238.1722959805
 10
745.8997816184
 20
-239.8859946051
 10
753.6069034737
 20
-241.9049238996
 10
761.3108593086
 20
-244.2257667685
 10
768.9989915439
 20
-246.8447100731
 10
776.6586685985
 20
-249.7574508964
 10
784.2773056432
 20
-252.9592036129
 10
791.8423852772
 20
-256.4447077512
 10
799.3414780947
 20
-260.2082366372
 10
806.7622631058
 20
-264.2436068029
 10
814.0925479801
 20
-268.5441881456
 10
821.320289079
 20
-273.1029148215
 10
828.4336112428
 20
-277.9122968546
 10
835.4208273017
 20
-282.964432443
 10
842.2704572783
 20
-288.251020941
 10
848.9712472484
 20
-293.7633764977
 10
855.5121878317
 20
-299.4924423273
 10
861.88253228
 20
-305.4288055898
 10
868.0718141341
 20
-311.5627128558
 10
874.0698644201
 20
-317.8840861319
 10
879.8668283572
 20
-324.3825394184
 10
885.4531815489
 20
-331.0473957735
 10
890.8197456315
 20
-337.8677048558
 10
895.9577033544
 20
-344.8322609154
 10
900.8586130664
 20
-351.929621205
 10
905.5144225859
 20
-359.1481247802
 10
909.9174824299
 20
-366.4759116585
 10
914.0605583828
 20
-373.9009423055
 10
917.9368433816
 20
-381.4110174153
 10
921.5399687002
 20
-388.9937979541
 10
924.8640144133
 20
-396.6368254335
 10
927.9035191223
 20
-404.3275423794
 10
930.6534889291
 20
-412.0533129639
 10
933.1094056406
 20
-419.8014437665
 10
935.2672341919
 20
-427.5592046284
 10
937.1234292764
 20
-435.3138495689
 10
938.6749411706
 20
-443.0526377269
 10
939.9192207444
 20
-450.7628542936
 10
940.8542236497
 20
-458.4318314034
 10
941.4784136792
 20
-466.0469689472
 10
941.7907652905
 20
-473.595755274
 10
941.7907652905
 20
-481.0657877476
 10
941.4784136792
 20
-488.4447931242
 10
940.8542236497
 20
-495.7206477175
 10
939.9192207444
 20
-502.8813973174
 10
938.6749411706
 20
-509.9152768312
 10
937.1234292764
 20
-516.8107296132
 10
935.2672341919
 20
-523.5564264527
 10
933.1094056406
 20
-530.1412841875
 10
930.6534889291
 20
-536.5544839135
 10
927.9035191223
 20
-542.7854887606
 10
924.8640144133
 20
-548.824061204
 10
921.5399687002
 20
-554.6602798851
 10
917.9368433816
 20
-560.284555912
 10
914.0605583828
 20
-565.6876486139
 10
909.9174824299
 20
-570.8606807237
 10
905.5144225859
 20
-575.7951529632
 10
900.8586130664
 20
-580.4829580074
 10
895.9577033544
 20
-584.9163938051
 10
890.8197456315
 20
-589.0881762328
 10
885.4531815489
 20
-592.9914510629
 10
879.8668283572
 20
-596.6198052252
 10
874.0698644201
 20
-599.9672773432
 10
868.071814134
 20
-603.0283675292
 10
861.88253228
 20
-605.7980464199
 10
855.5121878317
 20
-608.2717634402
 10
848.9712472484
 20
-610.4454542796
 10
848.5717616601
 20
-610.5668096244
  0
LWPOLYLINE
  5
CB
330
1F
100
AcDbEntity
  8
0
  6
Continuous
 62
     7
370
    25
100
AcDbPolyline
 90
       39
 70
   128
 43
0.0
 10
795.7807492079
 20
-577.0526004763
 10
795.2763671258
 20
-576.9731827071
 10
787.9257045857
 20
-575.6534095727
 10
780.552086741
 20
-574.0264645442
 10
773.1686236151
 20
-572.0952402702
 10
765.7884427359
 20
-569.8631703972
 10
758.4246657958
 20
-567.3342234638
 10
751.0903853215
 20
-564.5128958455
 10
743.7986413958
 20
-561.4042037598
 10
736.5623984736
 20
-558.0136743478
 10
729.3945223305
 20
-554.347335847
 10
722.3077571888
 20
-550.4117068735
 10
715.3147030584
 20
-546.213784832
 10
708.4277933342
 20
-541.7610334747
 10
701.6592726904
 20
-537.061369631
 10
695.0211753098
 20
-532.1231491317
 10
688.5253034872
 20
-526.9551519526
 10
682.1832066456
 20
-521.5665666043
 10
676.0061608019
 20
-515.9669737946
 10
670.005148518
 20
-510.1663293954
 10
664.1908393749
 20
-504.1749467406
 10
658.5735710021
 20
-498.00347829
 10
653.1633306976
 20
-491.6628966893
 10
647.9697376714
 20
-485.1644752612
 10
643.0020259422
 20
-478.5197679618
 10
638.2690279203
 20
-471.7405888383
 10
633.7791587035
 20
-464.8389910236
 10
629.5404011153
 20
-457.8272453069
 10
625.560291512
 20
-450.7178183162
 10
621.8459063833
 20
-443.5233503532
 10
618.4038497704
 20
-436.2566329194
 10
615.2402415243
 20
-428.9305859733
 10
612.3607064251
 20
-421.5582349588
 10
609.7703641811
 20
-414.1526876472
 10
607.4738203262
 20
-406.7271108313
 10
605.4751580316
 20
-399.2947069156
 10
603.7779308459
 20
-391.8686904431
 10
602.3851563772
 20
-384.4622646001
 10
601.404319921
 20
-377.9026782798
  0
ENDSEC
  0
SECTION
  2
OBJECTS
  0
DICTIONARY
  5
C
330
0
100
AcDbDictionary
281
     1
  3
ACAD_GROUP
350
D
  3
ACAD_LAYOUT
350
1A
  3
ACAD_MLINESTYLE
350
17
  3
ACAD_PLOTSETTINGS
350
19
  3
ACAD_PLOTSTYLENAME
350
E
  3
ACAD_SCALELIST
350
47
  0
DICTIONARY
  5
D
102
{ACAD_REACTORS
330
C
102
}
330
C
100
AcDbDictionary
281
     1
  0
DICTIONARY
  5
1A
102
{ACAD_REACTORS
330
C
102
}
330
C
100
AcDbDictionary
281
     1
  3
Layout1
350
1E
  3
Layout2
350
26
  3
Model
350
22
  0
DICTIONARY
  5
17
102
{ACAD_REACTORS
330
C
102
}
330
C
100
AcDbDictionary
281
     1
  3
Standard
350
18
  0
DICTIONARY
  5
19
102
{ACAD_REACTORS
330
C
102
}
330
C
100
AcDbDictionary
281
     1
  0
ACDBDICTIONARYWDFLT
  5
E
102
{ACAD_REACTORS
330
C
102
}
330
C
100
AcDbDictionary
281
     1
  3
Normal
350
F
100
AcDbDictionaryWithDefault
340
F
  0
DICTIONARY
  5
47
102
{ACAD_REACTORS
330
C
102
}
330
C
100
AcDbDictionary
281
     1
  3
A0
350
48
  3
A1
350
49
  3
A2
350
4A
  3
A3
350
4B
  3
A4
350
4C
  3
A5
350
4D
  3
A6
350
4E
  3
A7
350
4F
  3
A8
350
50
  3
A9
350
51
  3
B0
350
52
  3
B1
350
53
  3
B2
350
54
  3
B3
350
55
  3
B4
350
56
  3
B5
350
57
  3
B6
350
58
  3
B7
350
59
  3
B8
350
5A
  3
B9
350
5B
  3
C0
350
5C
  3
C1
350
5D
  3
C2
350
5E
  3
C3
350
5F
  3
C4
350
60
  3
C5
350
61
  3
C6
350
62
  3
C7
350
63
  3
C8
350
64
  3
C9
350
65
  3
D0
350
66
  3
D1
350
67
  3
D2
350
68
  0
LAYOUT
  5
1E
102
{ACAD_REACTORS
330
1A
102
}
330
1A
100
AcDbPlotSettings
  1

  2
none_device
  4

  6

 40
0.0
 41
0.0
 42
0.0
 43
0.0
 44
0.0
 45
0.0
 46
0.0
 47
0.0
 48
0.0
 49
0.0
140
0.0
141
0.0
142
1.0
143
1.0
 70
   688
 72
     1
 73
     0
 74
     5
  7

 75
    16
147
1.0
148
0.0
149
0.0
100
AcDbLayout
  1
Layout1
 70
     1
 71
     1
 10
0.0
 20
0.0
 11
420.0
 21
297.0
 12
0.0
 22
0.0
 32
0.0
 14
1.0000000000E+20
 24
1.0000000000E+20
 34
1.0000000000E+20
 15
-1.0000000000E+20
 25
-1.0000000000E+20
 35
-1.0000000000E+20
146
0.0
 13
0.0
 23
0.0
 33
0.0
 16
1.0
 26
0.0
 36
0.0
 17
0.0
 27
1.0
 37
0.0
 76
     0
330
1B
  0
LAYOUT
  5
26
102
{ACAD_REACTORS
330
1A
102
}
330
1A
100
AcDbPlotSettings
  1

  2
none_device
  4

  6

 40
0.0
 41
0.0
 42
0.0
 43
0.0
 44
0.0
 45
0.0
 46
0.0
 47
0.0
 48
0.0
 49
0.0
140
0.0
141
0.0
142
1.0
143
1.0
 70
   688
 72
     1
 73
     0
 74
     5
  7

 75
    16
147
1.0
148
0.0
149
0.0
100
AcDbLayout
  1
Layout2
 70
     1
 71
     2
 10
0.0
 20
0.0
 11
0.0
 21
0.0
 12
0.0
 22
0.0
 32
0.0
 14
0.0
 24
0.0
 34
0.0
 15
0.0
 25
0.0
 35
0.0
146
0.0
 13
0.0
 23
0.0
 33
0.0
 16
1.0
 26
0.0
 36
0.0
 17
0.0
 27
1.0
 37
0.0
 76
     0
330
23
  0
LAYOUT
  5
22
102
{ACAD_REACTORS
330
1A
102
}
330
1A
100
AcDbPlotSettings
  1

  2
none_device
  4
Letter_(8.50_x_11.00_Inches)
  6

 40
6.35
 41
6.35
 42
6.35000508
 43
6.35000508
 44
215.9
 45
279.4
 46
0.0
 47
0.0
 48
0.0
 49
0.0
140
0.0
141
0.0
142
1.0
143
1.0
 70
  1712
 72
     1
 73
     0
 74
     0
  7

 75
     0
147
1.0
148
0.0
149
0.0
100
AcDbLayout
  1
Model
 70
     1
 71
     0
 10
0.0
 20
0.0
 11
279.4
 21
215.9
 12
0.0
 22
0.0
 32
0.0
 14
0.0
 24
0.0
 34
0.0
 15
279.4
 25
215.9
 35
0.0
146
0.0
 13
0.0
 23
0.0
 33
0.0
 16
1.0
 26
0.0
 36
0.0
 17
0.0
 27
1.0
 37
0.0
 76
     0
330
1F
331
29
  0
MLINESTYLE
  5
18
102
{ACAD_REACTORS
330
17
102
}
330
17
100
AcDbMlineStyle
  2
Standard
 70
     0
  3

 62
   256
 51
90.0
 52
90.0
 71
     2
 49
0.5
 62
   256
  6
BYLAYER
 49
-0.5
 62
   256
  6
BYLAYER
  0
ACDBPLACEHOLDER
  5
F
102
{ACAD_REACTORS
330
E
102
}
330
E
  0
SCALE
  5
48
102
{ACAD_REACTORS
330
47
102
}
330
47
100
AcDbScale
 70
     0
300
1:1
140
1.0
141
1.0
290
     1
  0
SCALE
  5
49
102
{ACAD_REACTORS
330
47
102
}
330
47
100
AcDbScale
 70
     0
300
1:2
140
1.0
141
2.0
290
     0
  0
SCALE
  5
4A
102
{ACAD_REACTORS
330
47
102
}
330
47
100
AcDbScale
 70
     0
300
1:4
140
1.0
141
4.0
290
     0
  0
SCALE
  5
4B
102
{ACAD_REACTORS
330
47
102
}
330
47
100
AcDbScale
 70
     0
300
1:5
140
1.0
141
5.0
290
     0
  0
SCALE
  5
4C
102
{ACAD_REACTORS
330
47
102
}
330
47
100
AcDbScale
 70
     0
300
1:8
140
1.0
141
8.0
290
     0
  0
SCALE
  5
4D
102
{ACAD_REACTORS
330
47
102
}
330
47
100
AcDbScale
 70
     0
300
1:10
140
1.0
141
10.0
290
     0
  0
SCALE
  5
4E
102
{ACAD_REACTORS
330
47
102
}
330
47
100
AcDbScale
 70
     0
300
1:16
140
1.0
141
16.0
290
     0
  0
SCALE
  5
4F
102
{ACAD_REACTORS
330
47
102
}
330
47
100
AcDbScale
 70
     0
300
1:20
140
1.0
141
20.0
290
     0
  0
SCALE
  5
50
102
{ACAD_REACTORS
330
47
102
}
330
47
100
AcDbScale
 70
     0
300
1:30
140
1.0
141
30.0
290
     0
  0
SCALE
  5
51
102
{ACAD_REACTORS
330
47
102
}
330
47
100
AcDbScale
 70
     0
300
1:40
140
1.0
141
40.0
290
     0
  0
SCALE
  5
52
102
{ACAD_REACTORS
330
47
102
}
330
47
100
AcDbScale
 70
     0
300
1:50
140
1.0
141
50.0
290
     0
  0
SCALE
  5
53
102
{ACAD_REACTORS
330
47
102
}
330
47
100
AcDbScale
 70
     0
300
1:100
140
1.0
141
100.0
290
     0
  0
SCALE
  5
54
102
{ACAD_REACTORS
330
47
102
}
330
47
100
AcDbScale
 70
     0
300
2:1
140
2.0
141
1.0
290
     0
  0
SCALE
  5
55
102
{ACAD_REACTORS
330
47
102
}
330
47
100
AcDbScale
 70
     0
300
4:1
140
4.0
141
1.0
290
     0
  0
SCALE
  5
56
102
{ACAD_REACTORS
330
47
102
}
330
47
100
AcDbScale
 70
     0
300
8:1
140
8.0
141
1.0
290
     0
  0
SCALE
  5
57
102
{ACAD_REACTORS
330
47
102
}
330
47
100
AcDbScale
 70
     0
300
10:1
140
10.0
141
1.0
290
     0
  0
SCALE
  5
58
102
{ACAD_REACTORS
330
47
102
}
330
47
100
AcDbScale
 70
     0
300
100:1
140
100.0
141
1.0
290
     0
  0
SCALE
  5
59
102
{ACAD_REACTORS
330
47
102
}
330
47
100
AcDbScale
 70
     0
300
1/128" = 1'-0"
140
0.0078125
141
12.0
290
     0
  0
SCALE
  5
5A
102
{ACAD_REACTORS
330
47
102
}
330
47
100
AcDbScale
 70
     0
300
1/64" = 1'-0"
140
0.015625
141
12.0
290
     0
  0
SCALE
  5
5B
102
{ACAD_REACTORS
330
47
102
}
330
47
100
AcDbScale
 70
     0
300
1/32" = 1'-0"
140
0.03125
141
12.0
290
     0
  0
SCALE
  5
5C
102
{ACAD_REACTORS
330
47
102
}
330
47
100
AcDbScale
 70
     0
300
1/16" = 1'-0"
140
0.0625
141
12.0
290
     0
  0
SCALE
  5
5D
102
{ACAD_REACTORS
330
47
102
}
330
47
100
AcDbScale
 70
     0
300
3/32" = 1'-0"
140
0.09375
141
12.0
290
     0
  0
SCALE
  5
5E
102
{ACAD_REACTORS
330
47
102
}
330
47
100
AcDbScale
 70
     0
300
1/8" = 1'-0"
140
0.125
141
12.0
290
     0
  0
SCALE
  5
5F
102
{ACAD_REACTORS
330
47
102
}
330
47
100
AcDbScale
 70
     0
300
3/16" = 1'-0"
140
0.1875
141
12.0
290
     0
  0
SCALE
  5
60
102
{ACAD_REACTORS
330
47
102
}
330
47
100
AcDbScale
 70
     0
300
1/4" = 1'-0"
140
0.25
141
12.0
290
     0
  0
SCALE
  5
61
102
{ACAD_REACTORS
330
47
102
}
330
47
100
AcDbScale
 70
     0
300
3/8" = 1'-0"
140
0.375
141
12.0
290
     0
  0
SCALE
  5
62
102
{ACAD_REACTORS
330
47
102
}
330
47
100
AcDbScale
 70
     0
300
1/2" = 1'-0"
140
0.5
141
12.0
290
     0
  0
SCALE
  5
63
102
{ACAD_REACTORS
330
47
102
}
330
47
100
AcDbScale
 70
     0
300
3/4" = 1'-0"
140
0.75
141
12.0
290
     0
  0
SCALE
  5
64
102
{ACAD_REACTORS
330
47
102
}
330
47
100
AcDbScale
 70
     0
300
1" = 1'-0"
140
1.0
141
12.0
290
     0
  0
SCALE
  5
65
102
{ACAD_REACTORS
330
47
102
}
330
47
100
AcDbScale
 70
     0
300
1-1/2" = 1'-0"
140
1.5
141
12.0
290
     0
  0
SCALE
  5
66
102
{ACAD_REACTORS
330
47
102
}
330
47
100
AcDbScale
 70
     0
300
3" = 1'-0"
140
3.0
141
12.0
290
     0
  0
SCALE
  5
67
102
{ACAD_REACTORS
330
47
102
}
330
47
100
AcDbScale
 70
     0
300
6" = 1'-0"
140
6.0
141
12.0
290
     0
  0
SCALE
  5
68
102
{ACAD_REACTORS
330
47
102
}
330
47
100
AcDbScale
 70
     0
300
1'-0" = 1'-0"
140
12.0
141
12.0
290
     0
  0
ENDSEC
  0
EOF
